  0
SECTION
  2
HEADER
  9
$ACADVER
  1
AC1015
  9
$ACADMAINTVER
 70
     6
  9
$DWGCODEPAGE
  3
ANSI_1254
  9
$INSBASE
 10
0.0
 20
0.0
 30
0.0
  9
$EXTMIN
 10
0.0
 20
0.0
 30
0.0
  9
$EXTMAX
 10
279.4
 20
215.9
 30
0.0
  9
$LIMMIN
 10
0.0
 20
0.0
  9
$LIMMAX
 10
279.4
 20
215.9
  9
$ORTHOMODE
 70
     0
  9
$REGENMODE
 70
     1
  9
$FILLMODE
 70
     1
  9
$QTEXTMODE
 70
     0
  9
$MIRRTEXT
 70
     1
  9
$LTSCALE
 40
1.0
  9
$ATTMODE
 70
     1
  9
$TEXTSIZE
 40
3.5
  9
$TRACEWID
 40
1.0
  9
$TEXTSTYLE
  7
Standard
  9
$CLAYER
  8
0
  9
$CELTYPE
  6
ByLayer
  9
$CECOLOR
 62
   256
  9
$CELTSCALE
 40
1.0
  9
$DISPSILH
 70
     0
  9
$DIMSCALE
 40
1.0
  9
$DIMASZ
 40
3.5
  9
$DIMEXO
 40
1.0
  9
$DIMDLI
 40
3.75
  9
$DIMRND
 40
0.0
  9
$DIMDLE
 40
0.0
  9
$DIMEXE
 40
1.0
  9
$DIMTP
 40
0.0
  9
$DIMTM
 40
0.0
  9
$DIMTXT
 40
3.5
  9
$DIMCEN
 40
2.5
  9
$DIMTSZ
 40
0.0
  9
$DIMTOL
 70
     0
  9
$DIMLIM
 70
     0
  9
$DIMTIH
 70
     1
  9
$DIMTOH
 70
     1
  9
$DIMSE1
 70
     0
  9
$DIMSE2
 70
     0
  9
$DIMTAD
 70
     1
  9
$DIMZIN
 70
     0
  9
$DIMBLK
  1

  9
$DIMASO
 70
     1
  9
$DIMSHO
 70
     1
  9
$DIMPOST
  1

  9
$DIMAPOST
  1

  9
$DIMALT
 70
     0
  9
$DIMALTD
 70
     3
  9
$DIMALTF
 40
0.0393700787
  9
$DIMLFAC
 40
1.0
  9
$DIMTOFL
 70
     1
  9
$DIMTVP
 40
0.0
  9
$DIMTIX
 70
     0
  9
$DIMSOXD
 70
     0
  9
$DIMSAH
 70
     0
  9
$DIMBLK1
  1

  9
$DIMBLK2
  1

  9
$DIMSTYLE
  2
ISO-25
  9
$DIMCLRD
 70
     0
  9
$DIMCLRE
 70
     0
  9
$DIMCLRT
 70
     0
  9
$DIMTFAC
 40
1.0
  9
$DIMGAP
 40
1.524
  9
$DIMJUST
 70
     0
  9
$DIMSD1
 70
     0
  9
$DIMSD2
 70
     0
  9
$DIMTOLJ
 70
     0
  9
$DIMTZIN
 70
     0
  9
$DIMALTZ
 70
     0
  9
$DIMALTTZ
 70
     0
  9
$DIMUPT
 70
     0
  9
$DIMDEC
 70
     2
  9
$DIMTDEC
 70
     2
  9
$DIMALTU
 70
     2
  9
$DIMALTTD
 70
     3
  9
$DIMTXSTY
  7
Standard
  9
$DIMAUNIT
 70
     0
  9
$DIMADEC
 70
     2
  9
$DIMALTRND
 40
0.0
  9
$DIMAZIN
 70
     0
  9
$DIMDSEP
 70
    44
  9
$DIMATFIT
 70
     3
  9
$DIMFRAC
 70
     0
  9
$DIMLDRBLK
  1

  9
$DIMLUNIT
 70
     2
  9
$DIMLWD
 70
    -2
  9
$DIMLWE
 70
    -2
  9
$DIMTMOVE
 70
     0
  9
$LUNITS
 70
     2
  9
$LUPREC
 70
     2
  9
$SKETCHINC
 40
1.0
  9
$FILLETRAD
 40
10.0
  9
$AUNITS
 70
     0
  9
$AUPREC
 70
     2
  9
$MENU
  1
.
  9
$ELEVATION
 40
0.0
  9
$PELEVATION
 40
0.0
  9
$THICKNESS
 40
0.0
  9
$LIMCHECK
 70
     0
  9
$CHAMFERA
 40
0.0
  9
$CHAMFERB
 40
0.0
  9
$CHAMFERC
 40
0.0
  9
$CHAMFERD
 40
0.0
  9
$SKPOLY
 70
     0
  9
$TDCREATE
 40
2458985.683042975
  9
$TDUCREATE
 40
2458985.558042975
  9
$TDUPDATE
 40
2458985.683043357
  9
$TDUUPDATE
 40
2458985.558043357
  9
$TDINDWG
 40
0.0000000116
  9
$TDUSRTIMER
 40
0.0000000116
  9
$USRTIMER
 70
     1
  9
$ANGBASE
 50
0.0
  9
$ANGDIR
 70
     0
  9
$PDMODE
 70
     0
  9
$PDSIZE
 40
-1.0
  9
$PLINEWID
 40
0.0
  9
$SPLFRAME
 70
     0
  9
$SPLINETYPE
 70
     6
  9
$SPLINESEGS
 70
     8
  9
$HANDSEED
  5
CB
  9
$SURFTAB1
 70
     6
  9
$SURFTAB2
 70
     6
  9
$SURFTYPE
 70
     6
  9
$SURFU
 70
     6
  9
$SURFV
 70
     6
  9
$UCSBASE
  2

  9
$UCSNAME
  2

  9
$UCSORG
 10
0.0
 20
0.0
 30
0.0
  9
$UCSXDIR
 10
1.0
 20
0.0
 30
0.0
  9
$UCSYDIR
 10
0.0
 20
1.0
 30
0.0
  9
$UCSORTHOREF
  2

  9
$UCSORTHOVIEW
 70
     0
  9
$UCSORGTOP
 10
0.0
 20
0.0
 30
0.0
  9
$UCSORGBOTTOM
 10
0.0
 20
0.0
 30
0.0
  9
$UCSORGLEFT
 10
0.0
 20
0.0
 30
0.0
  9
$UCSORGRIGHT
 10
0.0
 20
0.0
 30
0.0
  9
$UCSORGFRONT
 10
0.0
 20
0.0
 30
0.0
  9
$UCSORGBACK
 10
0.0
 20
0.0
 30
0.0
  9
$PUCSBASE
  2

  9
$PUCSNAME
  2

  9
$PUCSORG
 10
0.0
 20
0.0
 30
0.0
  9
$PUCSXDIR
 10
1.0
 20
0.0
 30
0.0
  9
$PUCSYDIR
 10
0.0
 20
1.0
 30
0.0
  9
$PUCSORTHOREF
  2

  9
$PUCSORTHOVIEW
 70
     0
  9
$PUCSORGTOP
 10
0.0
 20
0.0
 30
0.0
  9
$PUCSORGBOTTOM
 10
0.0
 20
0.0
 30
0.0
  9
$PUCSORGLEFT
 10
0.0
 20
0.0
 30
0.0
  9
$PUCSORGRIGHT
 10
0.0
 20
0.0
 30
0.0
  9
$PUCSORGFRONT
 10
0.0
 20
0.0
 30
0.0
  9
$PUCSORGBACK
 10
0.0
 20
0.0
 30
0.0
  9
$USERI1
 70
     0
  9
$USERI2
 70
     0
  9
$USERI3
 70
     0
  9
$USERI4
 70
     0
  9
$USERI5
 70
     0
  9
$USERR1
 40
0.0
  9
$USERR2
 40
0.0
  9
$USERR3
 40
0.0
  9
$USERR4
 40
0.0
  9
$USERR5
 40
0.0
  9
$WORLDVIEW
 70
     1
  9
$SHADEDGE
 70
     3
  9
$SHADEDIF
 70
    70
  9
$TILEMODE
 70
     1
  9
$MAXACTVP
 70
    64
  9
$PINSBASE
 10
0.0
 20
0.0
 30
0.0
  9
$PLIMCHECK
 70
     0
  9
$PEXTMIN
 10
1.0000000000E+20
 20
1.0000000000E+20
 30
1.0000000000E+20
  9
$PEXTMAX
 10
-1.0000000000E+20
 20
-1.0000000000E+20
 30
-1.0000000000E+20
  9
$PLIMMIN
 10
0.0
 20
0.0
  9
$PLIMMAX
 10
420.0
 20
297.0
  9
$UNITMODE
 70
     0
  9
$VISRETAIN
 70
     1
  9
$PLINEGEN
 70
     0
  9
$PSLTSCALE
 70
     1
  9
$TREEDEPTH
 70
  3020
  9
$CMLSTYLE
  2
Standard
  9
$CMLJUST
 70
     0
  9
$CMLSCALE
 40
20.0
  9
$PROXYGRAPHICS
 70
     1
  9
$MEASUREMENT
 70
     1
  9
$CELWEIGHT
370
    -1
  9
$ENDCAPS
280
     0
  9
$JOINSTYLE
280
     0
  9
$LWDISPLAY
290
     1
  9
$INSUNITS
 70
     4
  9
$HYPERLINKBASE
  1

  9
$STYLESHEET
  1

  9
$XEDIT
290
     1
  9
$CEPSNTYPE
380
     0
  9
$PSTYLEMODE
290
     1
  9
$FINGERPRINTGUID
  2
{dc545081-975b-40c6-a40b-1a1b5fb7e056}
  9
$VERSIONGUID
  2
{FAEB1C32-E019-11D5-929B-00C0DF256EC4}
  9
$EXTNAMES
290
     1
  9
$PSVPSCALE
 40
0.0
  9
$OLESTARTUP
290
     0
  0
ENDSEC
  0
SECTION
  2
CLASSES
  0
CLASS
  1
ACDBDICTIONARYWDFLT
  2
AcDbDictionaryWithDefault
  3
ObjectDBX Classes
 90
        0
280
     0
281
     0
  0
CLASS
  1
VISUALSTYLE
  2
AcDbVisualStyle
  3
ObjectDBX Classes
 90
     4095
280
     0
281
     0
  0
CLASS
  1
MATERIAL
  2
AcDbMaterial
  3
ObjectDBX Classes
 90
     1153
280
     0
281
     0
  0
CLASS
  1
SCALE
  2
AcDbScale
  3
ObjectDBX Classes
 90
     1153
280
     0
281
     0
  0
CLASS
  1
TABLESTYLE
  2
AcDbTableStyle
  3
ObjectDBX Classes
 90
     4095
280
     0
281
     0
  0
CLASS
  1
MLEADERSTYLE
  2
AcDbMLeaderStyle
  3
ACDB_MLEADERSTYLE_CLASS
 90
     4095
280
     0
281
     0
  0
CLASS
  1
SUN
  2
AcDbSun
  3
SCENEOE
 90
     1153
280
     0
281
     0
  0
CLASS
  1
ACDBPLACEHOLDER
  2
AcDbPlaceHolder
  3
ObjectDBX Classes
 90
        0
280
     0
281
     0
  0
CLASS
  1
LAYOUT
  2
AcDbLayout
  3
ObjectDBX Classes
 90
        0
280
     0
281
     0
  0
ENDSEC
  0
SECTION
  2
TABLES
  0
TABLE
  2
VPORT
  5
8
330
0
100
AcDbSymbolTable
 70
     1
  0
VPORT
  5
29
330
8
100
AcDbSymbolTableRecord
100
AcDbViewportTableRecord
  2
*Active
 70
     0
 10
0.0
 20
0.0
 11
1.0
 21
1.0
 12
139.7
 22
107.95
 13
0.0
 23
0.0
 14
10.0
 24
10.0
 15
10.0
 25
10.0
 16
0.0
 26
0.0
 36
1.0
 17
0.0
 27
0.0
 37
0.0
 40
215.9
 41
1.2941176471
 42
50.0
 43
0.0
 44
0.0
 50
0.0
 51
0.0
 71
     0
 72
  2000
 73
     1
 74
     3
 75
     0
 76
     0
 77
     0
 78
     0
281
     0
 65
     1
110
0.0
120
0.0
130
0.0
111
1.0
121
0.0
131
0.0
112
0.0
122
1.0
132
0.0
 79
     0
146
0.0
  0
ENDTAB
  0
TABLE
  2
LTYPE
  5
5
330
0
100
AcDbSymbolTable
 70
     6
  0
LTYPE
  5
14
330
5
100
AcDbSymbolTableRecord
100
AcDbLinetypeTableRecord
  2
ByBlock
 70
     0
  3

 72
    65
 73
     0
 40
0.0
  0
LTYPE
  5
15
330
5
100
AcDbSymbolTableRecord
100
AcDbLinetypeTableRecord
  2
ByLayer
 70
     0
  3

 72
    65
 73
     0
 40
0.0
  0
LTYPE
  5
16
330
5
100
AcDbSymbolTableRecord
100
AcDbLinetypeTableRecord
  2
Continuous
 70
     0
  3
Solid line
 72
    65
 73
     0
 40
0.0
  0
LTYPE
  5
6E
330
5
100
AcDbSymbolTableRecord
100
AcDbLinetypeTableRecord
  2
HIDDEN
 70
     0
  3
Hidden __ __ __ __ __ __ __ __ __ __ __ __ __ __
 72
    65
 73
     2
 40
1.905
 49
1.27
 74
     0
 49
-0.635
 74
     0
  0
LTYPE
  5
6F
330
5
100
AcDbSymbolTableRecord
100
AcDbLinetypeTableRecord
  2
PHANTOM
 70
     0
  3
Phantom ______  __  __  ______  __  __  ______
 72
    65
 73
     6
 40
12.7
 49
6.35
 74
     0
 49
-1.27
 74
     0
 49
1.27
 74
     0
 49
-1.27
 74
     0
 49
1.27
 74
     0
 49
-1.27
 74
     0
  0
LTYPE
  5
70
330
5
100
AcDbSymbolTableRecord
100
AcDbLinetypeTableRecord
  2
CENTER
 70
     0
  3
Center ____ _ ____ _ ____ _ ____ _ ____ _ ____
 72
    65
 73
     4
 40
10.16
 49
6.35
 74
     0
 49
-1.27
 74
     0
 49
1.27
 74
     0
 49
-1.27
 74
     0
  0
LTYPE
  5
71
330
5
100
AcDbSymbolTableRecord
100
AcDbLinetypeTableRecord
  2
CENTERX2
 70
     0
  3
Center (2x) ________  __  ________  __  _____
 72
    65
 73
     4
 40
20.32
 49
12.7
 74
     0
 49
-2.54
 74
     0
 49
2.54
 74
     0
 49
-2.54
 74
     0
  0
LTYPE
  5
72
330
5
100
AcDbSymbolTableRecord
100
AcDbLinetypeTableRecord
  2
DOT2
 70
     0
  3
Dot (.5x) ........................................
 72
    65
 73
     2
 40
0.635
 49
0.0
 74
     0
 49
-0.635
 74
     0
  0
ENDTAB
  0
TABLE
  2
LAYER
  5
2
330
0
100
AcDbSymbolTable
 70
    17
  0
LAYER
  5
10
330
2
100
AcDbSymbolTableRecord
100
AcDbLayerTableRecord
  2
0
 70
     0
 62
     7
  6
Continuous
370
    -3
390
F
  0
LAYER
  5
73
330
2
100
AcDbSymbolTableRecord
100
AcDbLayerTableRecord
  2
FORMAT
 70
     0
 62
     7
  6
Continuous
370
    -3
390
F
  0
LAYER
  5
74
330
2
100
AcDbSymbolTableRecord
100
AcDbLayerTableRecord
  2
YARDIMCI_GEOMETRI
 70
     0
 62
    -6
  6
Continuous
290
     0
370
    -3
390
F
  0
LAYER
  5
75
330
2
100
AcDbSymbolTableRecord
100
AcDbLayerTableRecord
  2
SAYFA_CERCEVESI
 70
     0
 62
     7
  6
Continuous
370
    25
390
F
  0
LAYER
  5
76
330
2
100
AcDbSymbolTableRecord
100
AcDbLayerTableRecord
  2
ANTET
 70
     0
 62
     7
  6
Continuous
370
    -3
390
F
  0
LAYER
  5
77
330
2
100
AcDbSymbolTableRecord
100
AcDbLayerTableRecord
  2
OLCU
 70
     0
 62
   150
  6
Continuous
370
    -3
390
F
  0
LAYER
  5
78
330
2
100
AcDbSymbolTableRecord
100
AcDbLayerTableRecord
  2
METIN
 70
     0
 62
    96
  6
Continuous
370
    -3
390
F
  0
LAYER
  5
79
330
2
100
AcDbSymbolTableRecord
100
AcDbLayerTableRecord
  2
BALON
 70
     0
 62
     5
  6
Continuous
370
    -3
390
F
  0
LAYER
  5
7A
330
2
100
AcDbSymbolTableRecord
100
AcDbLayerTableRecord
  2
VURGU
 70
     0
 62
     7
  6
Continuous
370
    -3
390
F
  0
LAYER
  5
7B
330
2
100
AcDbSymbolTableRecord
100
AcDbLayerTableRecord
  2
SILIK
 70
     0
 62
     7
  6
Continuous
370
    -3
390
F
  0
LAYER
  5
7C
330
2
100
AcDbSymbolTableRecord
100
AcDbLayerTableRecord
  2
MODEL
 70
     0
 62
     7
  6
Continuous
370
    -3
390
F
  0
LAYER
  5
7D
330
2
100
AcDbSymbolTableRecord
100
AcDbLayerTableRecord
  2
DETAYLANDıRMA
 70
     0
 62
   190
  6
Continuous
370
    -3
390
F
  0
LAYER
  5
7E
330
2
100
AcDbSymbolTableRecord
100
AcDbLayerTableRecord
  2
TOLERANS
 70
     0
 62
   230
  6
Continuous
370
    -3
390
F
  0
LAYER
  5
7F
330
2
100
AcDbSymbolTableRecord
100
AcDbLayerTableRecord
  2
MERKEZ_CIZGILERI
 70
     0
 62
    30
  6
Continuous
370
    -3
390
F
  0
LAYER
  5
80
330
2
100
AcDbSymbolTableRecord
100
AcDbLayerTableRecord
  2
KESIT-DETAY_CIZGILERI
 70
     0
 62
     7
  6
Continuous
370
    -3
390
F
  0
LAYER
  5
81
330
2
100
AcDbSymbolTableRecord
100
AcDbLayerTableRecord
  2
\U+041E\U+0421\U+0415\U+0412\U+042B\U+0415
 70
     0
 62
     7
  6
Continuous
370
    -3
390
F
  0
LAYER
  5
82
330
2
100
AcDbSymbolTableRecord
100
AcDbLayerTableRecord
  2
\U+0412\U+041E\U+0414\U+042F\U+041D\U+042B\U+0415_\U+0417\U+041D\U+0410\U+041A\U+0418
 70
     0
 62
    11
  6
Continuous
370
    -3
390
F
  0
ENDTAB
  0
TABLE
  2
STYLE
  5
3
330
0
100
AcDbSymbolTable
 70
     1
  0
STYLE
  5
11
330
3
100
AcDbSymbolTableRecord
100
AcDbTextStyleTableRecord
  2
Standard
 70
     0
 40
0.0
 41
1.0
 50
0.0
 71
     0
 42
3.5
  3
txt
  4

  0
ENDTAB
  0
TABLE
  2
VIEW
  5
6
330
0
100
AcDbSymbolTable
 70
     0
  0
ENDTAB
  0
TABLE
  2
UCS
  5
7
330
0
100
AcDbSymbolTable
 70
     0
  0
ENDTAB
  0
TABLE
  2
APPID
  5
9
330
0
100
AcDbSymbolTable
 70
     1
  0
APPID
  5
12
330
9
100
AcDbSymbolTableRecord
100
AcDbRegAppTableRecord
  2
ACAD
 70
     0
  0
ENDTAB
  0
TABLE
  2
DIMSTYLE
  5
A
330
0
100
AcDbSymbolTable
 70
     1
100
AcDbDimStyleTable
  0
DIMSTYLE
105
27
330
A
100
AcDbSymbolTableRecord
100
AcDbDimStyleTableRecord
  2
ISO-25
 70
     0
 41
2.5
 42
0.625
 43
3.75
 44
1.25
 73
     0
 74
     0
 77
     1
 78
     8
140
2.5
141
2.5
143
0.0393700787
147
0.625
171
     3
172
     1
178
     0
271
     2
272
     2
274
     3
278
    44
283
     0
284
     8
340
11
  0
ENDTAB
  0
TABLE
  2
BLOCK_RECORD
  5
1
330
0
100
AcDbSymbolTable
 70
     3
  0
BLOCK_RECORD
  5
1F
330
1
100
AcDbSymbolTableRecord
100
AcDbBlockTableRecord
  2
*Model_Space
340
22
  0
BLOCK_RECORD
  5
1B
330
1
100
AcDbSymbolTableRecord
100
AcDbBlockTableRecord
  2
*Paper_Space
340
1E
  0
BLOCK_RECORD
  5
23
330
1
100
AcDbSymbolTableRecord
100
AcDbBlockTableRecord
  2
*Paper_Space0
340
26
  0
BLOCK_RECORD
  5
88
330
1
100
AcDbSymbolTableRecord
100
AcDbBlockTableRecord
  2
SW_CENTERMARKSYMBOL_0
340
0
102
{BLKREFS
331
93
102
}
  0
BLOCK_RECORD
  5
B2
330
1
100
AcDbSymbolTableRecord
100
AcDbBlockTableRecord
  2
SW_CENTERMARKSYMBOL_1
340
0
102
{BLKREFS
331
BD
102
}
  0
ENDTAB
  0
ENDSEC
  0
SECTION
  2
BLOCKS
  0
BLOCK
  5
20
330
1F
100
AcDbEntity
  8
0
100
AcDbBlockBegin
  2
*Model_Space
 70
     0
 10
0.0
 20
0.0
 30
0.0
  3
*Model_Space
  1

  0
ENDBLK
  5
21
330
1F
100
AcDbEntity
  8
0
100
AcDbBlockEnd
  0
BLOCK
  5
1C
330
1B
100
AcDbEntity
 67
     1
  8
0
100
AcDbBlockBegin
  2
*Paper_Space
 70
     0
 10
0.0
 20
0.0
 30
0.0
  3
*Paper_Space
  1

  0
ENDBLK
  5
1D
330
1B
100
AcDbEntity
 67
     1
  8
0
100
AcDbBlockEnd
  0
BLOCK
  5
24
330
23
100
AcDbEntity
  8
0
100
AcDbBlockBegin
  2
*Paper_Space0
 70
     0
 10
0.0
 20
0.0
 30
0.0
  3
*Paper_Space0
  1

  0
ENDBLK
  5
25
330
23
100
AcDbEntity
  8
0
100
AcDbBlockEnd
  0
BLOCK
  5
89
330
88
100
AcDbEntity
  8
0
100
AcDbBlockBegin
  2
SW_CENTERMARKSYMBOL_0
 70
     0
 10
0.0
 20
0.0
 30
0.0
  3
SW_CENTERMARKSYMBOL_0
  1

  0
LINE
  5
8B
330
88
100
AcDbEntity
  8
FORMAT
 62
     0
100
AcDbLine
 10
0.0
 20
0.0
 30
0.0
 11
0.0
 21
2.5
 31
0.0
  0
LINE
  5
8C
330
88
100
AcDbEntity
  8
FORMAT
 62
     0
100
AcDbLine
 10
0.0
 20
0.0
 30
0.0
 11
-2.5
 21
0.0
 31
0.0
  0
LINE
  5
8D
330
88
100
AcDbEntity
  8
FORMAT
 62
     0
100
AcDbLine
 10
0.0
 20
0.0
 30
0.0
 11
0.0
 21
-2.5
 31
0.0
  0
LINE
  5
8E
330
88
100
AcDbEntity
  8
FORMAT
 62
     0
100
AcDbLine
 10
0.0
 20
0.0
 30
0.0
 11
2.5
 21
0.0
 31
0.0
  0
LINE
  5
8F
330
88
100
AcDbEntity
  8
FORMAT
 62
     0
100
AcDbLine
 10
0.0
 20
5.0
 30
0.0
 11
0.0
 21
102.5
 31
0.0
  0
LINE
  5
90
330
88
100
AcDbEntity
  8
FORMAT
 62
     0
100
AcDbLine
 10
-5.0
 20
0.0
 30
0.0
 11
-102.5
 21
0.0
 31
0.0
  0
LINE
  5
91
330
88
100
AcDbEntity
  8
FORMAT
 62
     0
100
AcDbLine
 10
0.0
 20
-5.0
 30
0.0
 11
0.0
 21
-102.5
 31
0.0
  0
LINE
  5
92
330
88
100
AcDbEntity
  8
FORMAT
 62
     0
100
AcDbLine
 10
5.0
 20
0.0
 30
0.0
 11
102.5
 21
0.0
 31
0.0
  0
ENDBLK
  5
8A
330
88
100
AcDbEntity
  8
0
100
AcDbBlockEnd
  0
BLOCK
  5
B3
330
B2
100
AcDbEntity
  8
0
100
AcDbBlockBegin
  2
SW_CENTERMARKSYMBOL_1
 70
     0
 10
0.0
 20
0.0
 30
0.0
  3
SW_CENTERMARKSYMBOL_1
  1

  0
LINE
  5
B5
330
B2
100
AcDbEntity
  8
FORMAT
 62
     0
100
AcDbLine
 10
0.0
 20
0.0
 30
0.0
 11
0.0
 21
2.5
 31
0.0
  0
LINE
  5
B6
330
B2
100
AcDbEntity
  8
FORMAT
 62
     0
100
AcDbLine
 10
0.0
 20
0.0
 30
0.0
 11
-2.5
 21
0.0
 31
0.0
  0
LINE
  5
B7
330
B2
100
AcDbEntity
  8
FORMAT
 62
     0
100
AcDbLine
 10
0.0
 20
0.0
 30
0.0
 11
0.0
 21
-2.5
 31
0.0
  0
LINE
  5
B8
330
B2
100
AcDbEntity
  8
FORMAT
 62
     0
100
AcDbLine
 10
0.0
 20
0.0
 30
0.0
 11
2.5
 21
0.0
 31
0.0
  0
LINE
  5
B9
330
B2
100
AcDbEntity
  8
FORMAT
 62
     0
100
AcDbLine
 10
0.0
 20
5.0
 30
0.0
 11
0.0
 21
34.0
 31
0.0
  0
LINE
  5
BA
330
B2
100
AcDbEntity
  8
FORMAT
 62
     0
100
AcDbLine
 10
-5.0
 20
0.0
 30
0.0
 11
-34.0
 21
0.0
 31
0.0
  0
LINE
  5
BB
330
B2
100
AcDbEntity
  8
FORMAT
 62
     0
100
AcDbLine
 10
0.0
 20
-5.0
 30
0.0
 11
0.0
 21
-34.0
 31
0.0
  0
LINE
  5
BC
330
B2
100
AcDbEntity
  8
FORMAT
 62
     0
100
AcDbLine
 10
5.0
 20
0.0
 30
0.0
 11
34.0
 21
0.0
 31
0.0
  0
ENDBLK
  5
B4
330
B2
100
AcDbEntity
  8
0
100
AcDbBlockEnd
  0
ENDSEC
  0
SECTION
  2
ENTITIES
  0
LINE
  5
83
330
1F
100
AcDbEntity
  8
0
  6
Continuous
 62
     7
370
    25
100
AcDbLine
 10
183.1285990836
 20
80.0878686308
 30
0.0
 11
279.1820556696
 21
80.0878686308
 31
0.0
  0
LINE
  5
84
330
1F
100
AcDbEntity
  8
0
  6
Continuous
 62
     7
370
    25
100
AcDbLine
 10
279.1820556696
 20
143.0878686308
 30
0.0
 11
183.125354172
 21
143.0878686308
 31
0.0
  0
CIRCLE
  5
85
330
1F
100
AcDbEntity
  8
0
  6
Continuous
 62
     7
370
    25
100
AcDbCircle
 10
88.1820556696
 20
111.5878686308
 30
0.0
 40
81.80000000000001
  0
CIRCLE
  5
86
330
1F
100
AcDbEntity
  8
0
  6
Continuous
 62
     7
370
    25
100
AcDbCircle
 10
88.1820556696
 20
111.5878686308
 30
0.0
 40
100.0
  0
LINE
  5
87
330
1F
100
AcDbEntity
  8
0
  6
Continuous
 62
     7
370
    25
100
AcDbLine
 10
279.1820556696
 20
143.0878686308
 30
0.0
 11
279.1820556696
 21
80.0878686308
 31
0.0
  0
INSERT
  5
93
330
1F
100
AcDbEntity
  8
FORMAT
100
AcDbBlockReference
  2
SW_CENTERMARKSYMBOL_0
 10
88.1820556696
 20
111.5878686308
 30
0.0
  0
LINE
  5
94
330
1F
100
AcDbEntity
  8
0
  6
Continuous
 62
     7
370
    25
100
AcDbLine
 10
-11.8179443304
 20
-95.1307068787
 30
0.0
 11
-11.8179443304
 21
-576.1307068787
 31
0.0
  0
LINE
  5
95
330
1F
100
AcDbEntity
  8
0
  6
Continuous
 62
     7
370
    25
100
AcDbLine
 10
188.1820556696
 20
-304.1531556999
 30
0.0
 11
188.1820556696
 21
-95.1307068787
 31
0.0
  0
LINE
  5
96
330
1F
100
AcDbEntity
  8
0
  6
Continuous
 62
     7
370
    25
100
AcDbLine
 10
188.1820556696
 20
-576.1307068787
 30
0.0
 11
188.1820556696
 21
-367.1307068787
 31
0.0
  0
LINE
  5
97
330
1F
100
AcDbEntity
  8
0
  6
Continuous
 62
     7
370
    25
100
AcDbLine
 10
188.1820556696
 20
-367.1307068787
 30
0.0
 11
279.1820556696
 21
-367.1307068787
 31
0.0
  0
LINE
  5
98
330
1F
100
AcDbEntity
  8
0
  6
Continuous
 62
     7
370
    25
100
AcDbLine
 10
279.1820556696
 20
-304.1307068787
 30
0.0
 11
188.1750526258
 21
-304.1307068787
 31
0.0
  0
SPLINE
  5
99
330
1F
100
AcDbEntity
  8
0
  6
Continuous
 62
     7
370
    25
100
AcDbSpline
210
0.0
220
0.0
230
1.0
 70
     8
 71
     3
 72
    27
 73
    23
 74
     0
 42
0.000000001
 43
0.00000001
 40
0.0
 40
0.0
 40
0.0
 40
0.0
 40
0.0029427020306227
 40
0.0560246429890445
 40
0.1062976130697125
 40
0.157963802621203
 40
0.209507466466499
 40
0.2624336753950134
 40
0.3160010479667801
 40
0.3711281081627961
 40
0.4244150491378693
 40
0.4793953736150833
 40
0.5302680173479953
 40
0.5826656042198006
 40
0.632848709762285
 40
0.6843826282464149
 40
0.7365627481919502
 40
0.7901591271035664
 40
0.8439968946541703
 40
0.8994593014453277
 40
0.9490426751390652
 40
1.0
 40
1.0
 40
1.0
 40
1.0
 10
188.1750196773749
 20
-304.1531556998689
 30
0.0
 10
188.1773432456248
 20
-304.1457416352505
 30
0.0
 10
188.2215805079453
 20
-304.0045889398639
 30
0.0
 10
188.0570563639043
 20
-304.5259820045949
 30
0.0
 10
187.6768474295197
 20
-305.76035610865
 30
0.0
 10
187.0681272786066
 20
-307.836188690651
 30
0.0
 10
186.3095373352988
 20
-310.6442711723627
 30
0.0
 10
185.4662131190821
 20
-314.1561648230811
 30
0.0
 10
184.6185678500851
 20
-318.3461319622431
 30
0.0
 10
183.8786172201937
 20
-323.0570137888369
 30
0.0
 10
183.3341124999119
 20
-328.1945031836896
 30
0.0
 10
183.067516603789
 20
-333.4338948975532
 30
0.0
 10
183.0946364042946
 20
-338.7058842030023
 30
0.0
 10
183.3938425800584
 20
-343.7306255116491
 30
0.0
 10
183.9291841213349
 20
-348.5426355940202
 30
0.0
 10
184.636508883175
 20
-352.9982805365245
 30
0.0
 10
185.4607413326837
 20
-357.0796847150845
 30
0.0
 10
186.3124348987118
 20
-360.632863837619
 30
0.0
 10
187.1059464481881
 20
-363.5618067034239
 30
0.0
 10
187.7128793058303
 20
-365.6211839826605
 30
0.0
 10
188.1077678051109
 20
-366.8962747104216
 30
0.0
 10
188.1570684733608
 20
-367.0518541261297
 30
0.0
 10
188.1820556696304
 20
-367.1307068787153
 30
0.0
  0
LINE
  5
9A
330
1F
100
AcDbEntity
  8
0
  6
Continuous
 62
     7
370
    25
100
AcDbLine
 10
188.1820556696
 20
-576.1307068787
 30
0.0
 11
-11.8179443304
 21
-576.1307068787
 31
0.0
  0
LINE
  5
9B
330
1F
100
AcDbEntity
  8
0
  6
Continuous
 62
     7
370
    25
100
AcDbLine
 10
188.1820556696
 20
-95.1307068787
 30
0.0
 11
-11.8179443304
 21
-95.1307068787
 31
0.0
  0
LINE
  5
9C
330
1F
100
AcDbEntity
  8
0
  6
Continuous
 62
     7
370
    25
100
AcDbLine
 10
279.1820556696
 20
-304.1307068787
 30
0.0
 11
279.1820556696
 21
-367.1307068787
 31
0.0
  0
LINE
  5
9D
330
1F
100
AcDbEntity
  8
0
  6
Continuous
 62
     7
370
    25
100
AcDbLine
 10
188.1820556696
 20
570.5098433279
 30
0.0
 11
188.1820556696
 21
779.5098433279
 31
0.0
  0
LINE
  5
9E
330
1F
100
AcDbEntity
  8
0
  6
Continuous
 62
     7
370
    25
100
AcDbLine
 10
188.1820556696
 20
298.5098433279
 30
0.0
 11
188.1820556696
 21
507.5322921491
 31
0.0
  0
LINE
  5
9F
330
1F
100
AcDbEntity
  8
0
  6
Continuous
 62
     7
370
    25
100
AcDbLine
 10
-11.8179443304
 20
779.5098433279
 30
0.0
 11
-11.8179443304
 21
298.5098433279
 31
0.0
  0
LINE
  5
A0
330
1F
100
AcDbEntity
  8
0
  6
Continuous
 62
     7
370
    25
100
AcDbLine
 10
188.1750526258
 20
507.5098433279
 30
0.0
 11
279.1820556696
 21
507.5098433279
 31
0.0
  0
LINE
  5
A1
330
1F
100
AcDbEntity
  8
0
  6
Continuous
 62
     7
370
    25
100
AcDbLine
 10
279.1820556696
 20
570.5098433279
 30
0.0
 11
188.1820556696
 21
570.5098433279
 31
0.0
  0
SPLINE
  5
A2
330
1F
100
AcDbEntity
  8
0
  6
Continuous
 62
     7
370
    25
100
AcDbSpline
210
0.0
220
0.0
230
1.0
 70
     8
 71
     3
 72
    26
 73
    22
 74
     0
 42
0.000000001
 43
0.00000001
 40
0.0
 40
0.0
 40
0.0
 40
0.0
 40
0.0511679900385545
 40
0.1038631819852811
 40
0.1550196530620017
 40
0.2075839242522298
 40
0.2601928225133201
 40
0.3142515509107007
 40
0.3680987014260855
 40
0.4236005479720314
 40
0.4757696684615332
 40
0.5295813300496384
 40
0.5797266666299964
 40
0.6312893979127587
 40
0.6822292535290486
 40
0.7345208312251668
 40
0.7877774479168914
 40
0.8425497637176615
 40
0.8961521003703752
 40
0.9514333810413175
 40
1.0
 40
1.0
 40
1.0
 40
1.0
 10
188.1820556696305
 20
570.5098433279169
 30
0.0
 10
188.1567950057536
 20
570.430113862887
 30
0.0
 10
188.1055197274531
 20
570.2682752616494
 30
0.0
 10
187.7034723473621
 20
568.9699186602078
 30
0.0
 10
187.1030995771504
 20
566.9268391605987
 30
0.0
 10
186.3457208156649
 20
564.1383513750388
 30
0.0
 10
185.4982730705136
 20
560.6277586539743
 30
0.0
 10
184.6537866987826
 20
556.4858599360455
 30
0.0
 10
183.9011116490929
 20
551.7556450335505
 30
0.0
 10
183.3536804587402
 20
546.6854892261659
 30
0.0
 10
183.0717035051458
 20
541.379766824773
 30
0.0
 10
183.0865242188231
 20
536.1741291561202
 30
0.0
 10
183.3800587937774
 20
531.0791956269792
 30
0.0
 10
183.9015916289684
 20
526.2985846643396
 30
0.0
 10
184.6076790507357
 20
521.8030197235663
 30
0.0
 10
185.4252092584995
 20
517.7217367083098
 30
0.0
 10
186.2816123519428
 20
514.1267511065491
 30
0.0
 10
187.073850948692
 20
511.1928139839431
 30
0.0
 10
187.706727092527
 20
509.0375843465407
 30
0.0
 10
188.1123566264028
 20
507.7299598292483
 30
0.0
 10
188.155052206116
 20
507.5952786085795
 30
0.0
 10
188.1750196773749
 20
507.5322921490705
 30
0.0
  0
LINE
  5
A3
330
1F
100
AcDbEntity
  8
0
  6
Continuous
 62
     7
370
    25
100
AcDbLine
 10
-11.8179443304
 20
779.5098433279
 30
0.0
 11
188.1820556696
 21
779.5098433279
 31
0.0
  0
LINE
  5
A4
330
1F
100
AcDbEntity
  8
0
  6
Continuous
 62
     7
370
    25
100
AcDbLine
 10
-11.8179443304
 20
298.5098433279
 30
0.0
 11
188.1820556696
 21
298.5098433279
 31
0.0
  0
LINE
  5
A5
330
1F
100
AcDbEntity
  8
0
  6
Continuous
 62
     7
370
    25
100
AcDbLine
 10
279.1820556696
 20
570.5098433279
 30
0.0
 11
279.1820556696
 21
507.5098433279
 31
0.0
  0
LINE
  5
A6
330
1F
100
AcDbEntity
  8
0
  6
Continuous
 62
     7
370
    25
100
AcDbLine
 10
401.8458460887
 20
11.5878686308
 30
0.0
 11
882.8458460887
 21
11.5878686308
 31
0.0
  0
LINE
  5
A7
330
1F
100
AcDbEntity
  8
0
  6
Continuous
 62
     7
370
    25
100
AcDbLine
 10
882.8458460887
 20
211.5878686308
 30
0.0
 11
401.8458460887
 21
211.5878686308
 31
0.0
  0
LINE
  5
A8
330
1F
100
AcDbEntity
  8
0
  6
Continuous
 62
     7
370
    25
100
AcDbLine
 10
882.8458460887
 20
211.5878686308
 30
0.0
 11
882.8458460887
 21
11.5878686308
 31
0.0
  0
LINE
  5
A9
330
1F
100
AcDbEntity
  8
0
  6
Continuous
 62
     7
370
    25
100
AcDbLine
 10
401.8458460887
 20
211.5878686308
 30
0.0
 11
401.8458460887
 21
11.5878686308
 31
0.0
  0
LINE
  5
AA
330
1F
100
AcDbEntity
  8
0
  6
Continuous
 62
     7
370
    25
100
AcDbLine
 10
-111.9363062971
 20
211.5878686308
 30
0.0
 11
-592.9363062971
 21
211.5878686308
 31
0.0
  0
LINE
  5
AB
330
1F
100
AcDbEntity
  8
0
  6
Continuous
 62
     7
370
    25
100
AcDbLine
 10
-592.9363062971
 20
11.5878686308
 30
0.0
 11
-111.9363062971
 21
11.5878686308
 31
0.0
  0
CIRCLE
  5
AC
330
1F
100
AcDbEntity
  8
0
  6
Continuous
 62
     7
370
    25
100
AcDbCircle
 10
-352.4363062971
 20
111.5878686308
 30
0.0
 40
25.69999999999999
  0
CIRCLE
  5
AD
330
1F
100
AcDbEntity
  8
0
  6
Continuous
 62
     7
370
    25
100
AcDbCircle
 10
-352.4363062971
 20
111.5878686308
 30
0.0
 40
31.50000000000006
  0
LINE
  5
AE
330
1F
100
AcDbEntity
  8
0
  6
Continuous
 62
     7
370
    25
100
AcDbLine
 10
-592.9363062971
 20
111.5878686308
 30
0.0
 11
-592.9363062971
 21
211.5878686308
 31
0.0
  0
LINE
  5
AF
330
1F
100
AcDbEntity
  8
0
  6
Continuous
 62
     7
370
    25
100
AcDbLine
 10
-592.9363062971
 20
11.5878686308
 30
0.0
 11
-592.9363062971
 21
111.5878686308
 31
0.0
  0
LINE
  5
B0
330
1F
100
AcDbEntity
  8
0
  6
Continuous
 62
     7
370
    25
100
AcDbLine
 10
-111.9363062971
 20
111.5878686308
 30
0.0
 11
-111.9363062971
 21
211.5878686308
 31
0.0
  0
LINE
  5
B1
330
1F
100
AcDbEntity
  8
0
  6
Continuous
 62
     7
370
    25
100
AcDbLine
 10
-111.9363062971
 20
11.5878686308
 30
0.0
 11
-111.9363062971
 21
111.5878686308
 31
0.0
  0
INSERT
  5
BD
330
1F
100
AcDbEntity
  8
FORMAT
100
AcDbBlockReference
  2
SW_CENTERMARKSYMBOL_1
 10
-352.4363062971
 20
111.5878686308
 30
0.0
  0
LINE
  5
BE
330
1F
100
AcDbEntity
  8
0
  6
Continuous
 62
     7
370
    25
100
AcDbLine
 10
784.7001597498
 20
-264.3487739098
 30
0.0
 11
696.1557297695
 21
-213.2331625086
 31
0.0
  0
LINE
  5
BF
330
1F
100
AcDbEntity
  8
0
  6
Continuous
 62
     7
370
    25
100
AcDbLine
 10
633.1506095095
 20
-176.861080784
 30
0.0
 11
444.581797999
 21
-68.0026230165
 31
0.0
  0
LINE
  5
C0
330
1F
100
AcDbEntity
  8
0
  6
Continuous
 62
     7
370
    25
100
AcDbLine
 10
344.5899247354
 20
-241.2123954926
 30
0.0
 11
684.7082864862
 21
-437.558546386
 31
0.0
  0
LINE
  5
C1
330
1F
100
AcDbEntity
  8
0
  6
Continuous
 62
     7
370
    25
100
AcDbLine
 10
649.3261796259
 20
-240.267286369
 30
0.0
 11
715.4511574882
 21
-202.0941491872
 31
0.0
  0
LINE
  5
C2
330
1F
100
AcDbEntity
  8
0
  6
Continuous
 62
     7
370
    25
100
AcDbLine
 10
683.9537174102
 20
-147.5330708572
 30
0.0
 11
617.828667632
 21
-185.7062495552
 31
0.0
  0
SPLINE
  5
C3
330
1F
100
AcDbEntity
  8
0
  6
Continuous
 62
     7
370
    25
100
AcDbSpline
210
0.0
220
0.0
230
1.0
 70
     8
 71
     3
 72
    22
 73
    18
 74
     0
 42
0.000000001
 43
0.00000001
 40
0.0
 40
0.0
 40
0.0
 40
0.0
 40
0.0682227227772732
 40
0.1384816770408263
 40
0.20668904148686
 40
0.2767734379757249
 40
0.3469173361233711
 40
0.4189943053060087
 40
0.4907891758723373
 40
0.5647902669387981
 40
0.6343478055876233
 40
0.7060953584608854
 40
0.7729545685552648
 40
0.8417036032406677
 40
0.9096221524235829
 40
0.9793429643229844
 40
1.0
 40
1.0
 40
1.0
 40
1.0
 10
613.081856753878
 20
-199.1017513488936
 30
0.0
 10
613.1203720116879
 20
-200.5317188983059
 30
0.0
 10
613.1985520853648
 20
-203.4343339845297
 30
0.0
 10
613.8323384269066
 20
-208.2094482116967
 30
0.0
 10
614.8524860894648
 20
-213.1660312163753
 30
0.0
 10
616.2886972407887
 20
-218.1530323408162
 30
0.0
 10
618.1718244031889
 20
-223.1023792171613
 30
0.0
 10
620.5034497479662
 20
-227.8129164932178
 30
0.0
 10
623.3159848979153
 20
-232.1645451173543
 30
0.0
 10
626.5140727102569
 20
-235.8714594624547
 30
0.0
 10
630.0662592827484
 20
-238.8478480646688
 30
0.0
 10
633.7581921037838
 20
-240.9315990175399
 30
0.0
 10
637.5666018408
 20
-242.1619659834124
 30
0.0
 10
641.3226004494737
 20
-242.5604234891242
 30
0.0
 10
644.9751963821411
 20
-242.0881845920904
 30
0.0
 10
647.677652176158
 20
-241.2770139547046
 30
0.0
 10
648.981699119612
 20
-240.3926119770222
 30
0.0
 10
649.2797560545557
 20
-240.1904703715767
 30
0.0
  0
SPLINE
  5
C4
330
1F
100
AcDbEntity
  8
0
  6
Continuous
 62
     7
370
    25
100
AcDbSpline
210
0.0
220
0.0
230
1.0
 70
     8
 71
     3
 72
    12
 73
     8
 74
     0
 42
0.000000001
 43
0.00000001
 40
0.0
 40
0.0
 40
0.0
 40
0.0
 40
0.1606406067040652
 40
0.3759906254298519
 40
0.5978391693878936
 40
0.7961716957765043
 40
0.9999999999999999
 40
0.9999999999999999
 40
0.9999999999999999
 40
0.9999999999999999
 10
617.8717722329237
 20
-185.776930592066
 30
0.0
 10
617.3712452086309
 20
-186.0829163401636
 30
0.0
 10
616.1997265448906
 20
-186.7990974799159
 30
0.0
 10
614.8539344345854
 20
-188.847717819841
 30
0.0
 10
613.8152532691811
 20
-191.6879698983654
 30
0.0
 10
613.195646764413
 20
-195.1214707473569
 30
0.0
 10
613.1201307484955
 20
-197.7629586235669
 30
0.0
 10
613.081856753878
 20
-199.1017513488936
 30
0.0
  0
LWPOLYLINE
  5
C5
330
1F
100
AcDbEntity
  8
0
  6
Continuous
 62
     7
370
    25
100
AcDbPolyline
 90
      107
 70
   128
 43
0.0
 10
465.2965394859
 20
-113.7871036634
 10
465.172352568
 20
-109.0215562054
 10
464.8002280254
 20
-104.4161310701
 10
464.181472959
 20
-99.9870049812
 10
463.3182607687
 20
-95.7497354057
 10
462.2136235188
 20
-91.7192059074
 10
460.8714412878
 20
-87.9095738682
 10
459.2964285398
 20
-84.3342207596
 10
457.4941175645
 20
-81.0057051399
 10
455.470839045
 20
-77.9357185415
 10
453.2336998209
 20
-75.1350444042
 10
450.7905579252
 20
-72.6135201982
 10
448.149994983
 20
-70.3800028692
 10
445.3212860679
 20
-68.4423377283
 10
442.3143671232
 20
-66.807330895
 10
439.1398000612
 20
-65.4807253903
 10
435.8087356647
 20
-64.4671809645
 10
432.3328744187
 20
-63.7702577293
 10
428.7244254127
 20
-63.3924036531
 10
424.9960634554
 20
-63.3349459621
 10
421.1608845542
 20
-63.5980864785
 10
417.2323599148
 20
-64.1809009116
 10
413.2242886234
 20
-65.0813421045
 10
409.1507491764
 20
-66.2962472246
 10
405.0260500297
 20
-67.8213488735
 10
400.8646793397
 20
-69.6512900759
 10
396.6812540725
 20
-71.7796430966
 10
392.490468662
 20
-74.1989320181
 10
388.3070433948
 20
-76.9006589997
 10
384.1456727047
 20
-79.8753341269
 10
380.0209735581
 20
-83.1125087448
 10
375.9474341111
 20
-86.6008121596
 10
371.9393628196
 20
-90.3279915782
 10
368.0108381802
 20
-94.2809551469
 10
364.175659279
 20
-98.4458179372
 10
360.4472973217
 20
-102.8079507165
 10
356.8388483158
 20
-107.3520313344
 10
353.3629870698
 20
-112.062098542
 10
350.0319226733
 20
-116.9216080564
 10
346.8573556113
 20
-121.9134906731
 10
343.8504366666
 20
-127.0202122226
 10
341.0217277515
 20
-132.223835159
 10
338.3811648093
 20
-137.5060815671
 10
335.9380229136
 20
-142.8483973636
 10
333.7008836894
 20
-148.2320174695
 10
331.6776051699
 20
-153.6380317228
 10
329.8752941947
 20
-159.0474513013
 10
328.3002814467
 20
-164.4412754214
 10
326.9580992157
 20
-169.8005580792
 10
325.8534619657
 20
-175.1064745989
 10
324.9902497754
 20
-180.3403877552
 10
324.3714947091
 20
-185.4839132373
 10
323.9993701665
 20
-190.5189842243
 10
323.8751832486
 20
-195.4279148457
 10
323.9993701665
 20
-200.1934623037
 10
324.3714947091
 20
-204.798887439
 10
324.9902497754
 20
-209.2280135279
 10
325.8534619657
 20
-213.4652831035
 10
326.9580992157
 20
-217.4958126018
 10
328.3002814467
 20
-221.3054446409
 10
329.8752941947
 20
-224.8807977495
 10
331.6776051699
 20
-228.2093133692
 10
333.7008836894
 20
-231.2792999677
 10
335.9380229136
 20
-234.0799741049
 10
338.3811648093
 20
-236.6014983109
 10
341.0217277515
 20
-238.8350156399
 10
343.8504366666
 20
-240.7726807808
 10
346.8573556113
 20
-242.4076876142
 10
350.0319226733
 20
-243.7342931189
 10
353.3629870698
 20
-244.7478375446
 10
356.8388483158
 20
-245.4447607798
 10
360.4472973217
 20
-245.822614856
 10
364.175659279
 20
-245.880072547
 10
368.0108381802
 20
-245.6169320306
 10
371.9393628196
 20
-245.0341175975
 10
375.9474341111
 20
-244.1336764046
 10
380.0209735581
 20
-242.9187712845
 10
384.1456727047
 20
-241.3936696356
 10
388.3070433948
 20
-239.5637284332
 10
392.490468662
 20
-237.4353754125
 10
396.6812540725
 20
-235.016086491
 10
400.8646793397
 20
-232.3143595094
 10
405.0260500297
 20
-229.3396843822
 10
409.1507491764
 20
-226.1025097643
 10
413.2242886234
 20
-222.6142063495
 10
417.2323599148
 20
-218.8870269309
 10
421.1608845542
 20
-214.9340633622
 10
424.9960634554
 20
-210.7692005719
 10
428.7244254127
 20
-206.4070677926
 10
432.3328744187
 20
-201.8629871747
 10
435.8087356647
 20
-197.1529199671
 10
439.1398000612
 20
-192.2934104528
 10
442.3143671232
 20
-187.301527836
 10
445.3212860679
 20
-182.1948062865
 10
448.149994983
 20
-176.9911833501
 10
450.7905579252
 20
-171.7089369421
 10
453.2336998209
 20
-166.3666211456
 10
455.470839045
 20
-160.9830010397
 10
457.4941175645
 20
-155.5769867863
 10
459.2964285398
 20
-150.1675672078
 10
460.8714412878
 20
-144.7737430877
 10
462.2136235188
 20
-139.4144604299
 10
463.3182607687
 20
-134.1085439102
 10
464.181472959
 20
-128.8746307539
 10
464.8002280254
 20
-123.7311052718
 10
465.172352568
 20
-118.6960342848
 10
465.2965394859
 20
-113.7871036634
  0
LWPOLYLINE
  5
C6
330
1F
100
AcDbEntity
  8
0
  6
Continuous
 62
     7
370
    25
100
AcDbPolyline
 90
       15
 70
   128
 43
0.0
 10
805.4149012366
 20
-310.1332545568
 10
805.2907143187
 20
-305.3677070988
 10
804.9185897761
 20
-300.7622819635
 10
804.2998347098
 20
-296.3331558746
 10
803.4366225195
 20
-292.095886299
 10
802.3319852695
 20
-288.0653568007
 10
800.9898030385
 20
-284.2557247616
 10
799.4147902905
 20
-280.680371653
 10
797.6124793153
 20
-277.3518560333
 10
795.5892007958
 20
-274.2818694348
 10
793.3520615716
 20
-271.4811952976
 10
790.9089196759
 20
-268.9596710916
 10
788.2683567337
 20
-266.7261537626
 10
785.4396478186
 20
-264.7884886217
 10
784.7001597498
 20
-264.3487739098
  0
LWPOLYLINE
  5
C7
330
1F
100
AcDbEntity
  8
0
  6
Continuous
 62
     7
370
    25
100
AcDbPolyline
 90
       41
 70
   128
 43
0.0
 10
684.7082864862
 20
-437.558546386
 10
686.975717362
 20
-438.7538385075
 10
690.150284424
 20
-440.0804440122
 10
693.4813488205
 20
-441.093988438
 10
696.9572100665
 20
-441.7909116731
 10
700.5656590725
 20
-442.1687657493
 10
704.2940210298
 20
-442.2262234404
 10
708.129199931
 20
-441.963082924
 10
712.0577245704
 20
-441.3802684909
 10
716.0657958618
 20
-440.479827298
 10
720.1393353088
 20
-439.2649221779
 10
724.2640344555
 20
-437.739820529
 10
728.4254051455
 20
-435.9098793266
 10
732.6088304127
 20
-433.7815263059
 10
736.7996158232
 20
-431.3622373844
 10
740.9830410904
 20
-428.6605104028
 10
745.1444117805
 20
-425.6858352756
 10
749.2691109271
 20
-422.4486606576
 10
753.3426503741
 20
-418.9603572429
 10
757.3507216656
 20
-415.2331778243
 10
761.279246305
 20
-411.2802142555
 10
765.1144252062
 20
-407.1153514652
 10
768.8427871635
 20
-402.7532186859
 10
772.4512361694
 20
-398.209138068
 10
775.9270974154
 20
-393.4990708605
 10
779.2581618119
 20
-388.6395613461
 10
782.4327288739
 20
-383.6476787293
 10
785.4396478186
 20
-378.5409571799
 10
788.2683567337
 20
-373.3373342435
 10
790.9089196759
 20
-368.0550878354
 10
793.3520615716
 20
-362.7127720389
 10
795.5892007958
 20
-357.329151933
 10
797.6124793153
 20
-351.9231376797
 10
799.4147902905
 20
-346.5137181012
 10
800.9898030385
 20
-341.1198939811
 10
802.3319852695
 20
-335.7606113233
 10
803.4366225195
 20
-330.4546948035
 10
804.2998347098
 20
-325.2207816472
 10
804.9185897761
 20
-320.0772561652
 10
805.2907143187
 20
-315.0421851782
 10
805.4149012366
 20
-310.1332545568
  0
LWPOLYLINE
  5
C8
330
1F
100
AcDbEntity
  8
0
  6
Continuous
 62
     7
370
    25
100
AcDbPolyline
 90
       97
 70
   128
 43
0.0
 10
452.4271960683
 20
-121.216417481
 10
452.3033533307
 20
-116.9194366487
 10
451.9323554316
 20
-112.7838419293
 10
451.3157910409
 20
-108.8273425742
 10
450.456300382
 20
-105.0668809211
 10
449.3575639259
 20
-101.5185598442
 10
448.0242866307
 20
-98.1975737991
 10
446.4621777945
 20
-95.1181437577
 10
444.6779266072
 20
-92.2934563124
 10
442.6791735062
 20
-89.7356072085
 10
440.4744774592
 20
-87.4555495484
 10
438.0732793132
 20
-85.4630468891
 10
435.4858613672
 20
-83.7666314329
 10
432.7233033422
 20
-82.3735674912
 10
429.7974349356
 20
-81.2898203778
 10
426.7207851653
 20
-80.520030864
 10
423.5065287178
 20
-80.0674953068
 10
420.1684295327
 20
-79.934151533
 10
416.7207818632
 20
-80.1205705409
 10
413.178349066
 20
-80.6259540559
 10
409.556300382
 20
-81.4481379481
 10
405.8701459799
 20
-82.5836014998
 10
402.1356705387
 20
-84.0274824819
 10
398.3688656555
 20
-85.7735979743
 10
394.5858613672
 20
-87.8144708423
 10
390.8028570789
 20
-90.1413617551
 10
387.0360521958
 20
-92.7443066085
 10
383.3015767546
 20
-95.612159193
 10
379.6154223525
 20
-98.7326389236
 10
375.9933736685
 20
-102.092383427
 10
372.4509408713
 20
-105.6770057616
 10
369.0032932018
 20
-109.471156024
 10
365.6651940167
 20
-113.4585870804
 10
362.4509375692
 20
-117.6222241388
 10
359.3742877988
 20
-121.9442378662
 10
356.4484193923
 20
-126.4061207363
 10
353.6858613672
 20
-130.9887662815
 10
351.0984434213
 20
-135.6725509102
 10
348.6972452752
 20
-140.4374179374
 10
346.4925492283
 20
-145.2629634711
 10
344.4937961273
 20
-150.1285237844
 10
342.70954494
 20
-155.0132638012
 10
341.1474361038
 20
-159.8962663146
 10
339.8141588086
 20
-164.7566215585
 10
338.7154223525
 20
-169.5735167453
 10
337.8559316936
 20
-174.3263251904
 10
337.2393673029
 20
-178.9946946383
 10
336.8683694038
 20
-183.5586344145
 10
336.7445266662
 20
-187.9986010281
 10
336.8683694038
 20
-192.2955818604
 10
337.2393673029
 20
-196.4311765799
 10
337.8559316936
 20
-200.3876759349
 10
338.7154223525
 20
-204.148137588
 10
339.8141588086
 20
-207.6964586649
 10
341.1474361038
 20
-211.01744471
 10
342.70954494
 20
-214.0968747514
 10
344.4937961273
 20
-216.9215621967
 10
346.4925492283
 20
-219.4794113007
 10
348.6972452752
 20
-221.7594689608
 10
351.0984434213
 20
-223.75197162
 10
353.6858613672
 20
-225.4483870762
 10
356.4484193923
 20
-226.8414510179
 10
359.3742877988
 20
-227.9251981313
 10
362.4509375692
 20
-228.6949876451
 10
365.6651940167
 20
-229.1475232023
 10
369.0032932018
 20
-229.2808669762
 10
372.4509408713
 20
-229.0944479682
 10
375.9933736685
 20
-228.5890644532
 10
379.6154223525
 20
-227.766880561
 10
383.3015767546
 20
-226.6314170093
 10
387.0360521958
 20
-225.1875360272
 10
390.8028570789
 20
-223.4414205348
 10
394.5858613672
 20
-221.4005476668
 10
398.3688656555
 20
-219.073656754
 10
402.1356705387
 20
-216.4707119007
 10
405.8701459799
 20
-213.6028593161
 10
409.556300382
 20
-210.4823795855
 10
413.178349066
 20
-207.1226350821
 10
416.7207818632
 20
-203.5380127476
 10
420.1684295327
 20
-199.7438624851
 10
423.5065287178
 20
-195.7564314287
 10
426.7207851653
 20
-191.5927943703
 10
429.7974349356
 20
-187.2707806429
 10
432.7233033422
 20
-182.8088977728
 10
435.4858613672
 20
-178.2262522276
 10
438.0732793132
 20
-173.542467599
 10
440.4744774592
 20
-168.7776005717
 10
442.6791735062
 20
-163.952055038
 10
444.6779266072
 20
-159.0864947247
 10
446.4621777945
 20
-154.2017547079
 10
448.0242866307
 20
-149.3187521945
 10
449.3575639259
 20
-144.4583969507
 10
450.456300382
 20
-139.6415017639
 10
451.3157910409
 20
-134.8886933187
 10
451.9323554316
 20
-130.2203238708
 10
452.3033533307
 20
-125.6563840946
 10
452.4271960683
 20
-121.216417481
  0
LWPOLYLINE
  5
C9
330
1F
100
AcDbEntity
  8
0
  6
Continuous
 62
     7
370
    25
100
AcDbPolyline
 90
       54
 70
   128
 43
0.0
 10
717.8750817257
 20
-185.3044542591
 10
717.7475296804
 20
-182.7488458457
 10
717.3666640954
 20
-180.0818441157
 10
716.7378314888
 20
-177.340887927
 10
715.8698592919
 20
-174.5644542965
 10
714.7749319318
 20
-171.7915182662
 10
713.4684197885
 20
-169.0610057796
 10
711.9686634285
 20
-166.4112472467
 10
710.2967161437
 20
-163.879439469
 10
708.4760484089
 20
-161.5011234779
 10
706.5322184083
 20
-159.3096856165
 10
704.4925132541
 20
-157.3358888688
 10
702.3855659355
 20
-155.6074410144
 10
700.2409533745
 20
-154.1486056724
 10
698.0887812303
 20
-152.9798616932
 10
695.9592612823
 20
-152.1176156805
 10
693.8822873225
 20
-151.573971678
 10
691.8870155126
 20
-151.356561256
 10
690.001455095
 20
-151.4684363802
 10
688.2520752049
 20
-151.908026569
 10
686.6634333012
 20
-152.6691609399
 10
685.2578304338
 20
-153.7411548347
 10
684.054998186
 20
-155.1089598089
 10
683.0718216859
 20
-156.753374879
 10
682.3221025763
 20
-158.6513160619
 10
681.8163652701
 20
-160.7761404239
 10
681.5617092106
 20
-163.0980200885
 10
681.5617092106
 20
-165.5843609549
 10
681.8163652701
 20
-168.2002602475
 10
682.3221025763
 20
-170.9089964742
 10
683.0718216859
 20
-173.6725449162
 10
684.054998186
 20
-176.4521114109
 10
685.2578304338
 20
-179.2086769379
 10
686.6634333012
 20
-181.9035453594
 10
688.2520752049
 20
-184.4988866301
 10
690.001455095
 20
-186.9582678476
 10
691.8870155126
 20
-189.2471646907
 10
693.8822873225
 20
-191.333446065
 10
695.9592612823
 20
-193.1878251532
 10
698.0887812303
 20
-194.7842705377
 10
700.2409533745
 20
-196.1003716248
 10
702.3855659355
 20
-197.1176532401
 10
704.4925132541
 20
-197.8218349797
 10
706.5322184083
 20
-198.2030316756
 10
708.4760484089
 20
-198.2558921617
 10
710.2967161437
 20
-197.9796743927
 10
711.9686634285
 20
-197.3782558606
 10
713.4684197885
 20
-196.4600791632
 10
714.7749319318
 20
-195.2380334887
 10
715.8698592919
 20
-193.7292736796
 10
716.7378314888
 20
-191.9549794165
 10
717.3666640954
 20
-189.9400579013
 10
717.7475296804
 20
-187.7127942156
 10
717.8750817257
 20
-185.3044542591
  0
LWPOLYLINE
  5
CA
330
1F
100
AcDbEntity
  8
0
  6
Continuous
 62
     7
370
    25
100
AcDbPolyline
 90
       60
 70
   128
 43
0.0
 10
721.9763010566
 20
-187.6720377834
 10
721.8501151692
 20
-184.8652136955
 10
721.4729872434
 20
-181.9445009215
 10
720.8491902894
 20
-178.9429923043
 10
719.9857921759
 20
-175.8946961358
 10
718.8925755486
 20
-172.8341508297
 10
717.5819269886
 20
-169.7960335872
 10
716.0686966678
 20
-166.8147674906
 10
714.3700300904
 20
-163.9241314761
 10
712.5051738276
 20
-161.1568776047
 10
710.4952574459
 20
-158.5443599686
 10
708.363054101
 20
-156.1161794364
 10
706.1327225088
 20
-153.8998482639
 10
703.8295332175
 20
-151.9204783688
 10
701.4795822821
 20
-150.2004968029
 10
699.1094955856
 20
-148.7593916448
 10
696.7461271573
 20
-147.6134911916
 10
694.4162549059
 20
-146.7757789534
 10
692.146277215
 20
-146.2557465445
 10
689.9619138388
 20
-146.05928614
 10
687.8879144873
 20
-146.1886237147
 10
685.9477784017
 20
-146.6422938222
 10
684.1634880993
 20
-147.415156199
 10
682.555260302
 20
-148.4984540054
 10
681.1413168735
 20
-149.8799130446
 10
679.9376783577
 20
-151.5438808334
 10
678.95798246
 20
-153.4715039521
 10
678.2133295265
 20
-155.6409416605
 10
677.7121567723
 20
-158.0276133624
 10
677.460142685
 20
-160.6044771138
 10
677.460142685
 20
-163.3423360187
 10
677.7121567723
 20
-166.2101690418
 10
678.2133295265
 20
-169.1754824889
 10
678.95798246
 20
-172.2046781739
 10
679.9376783577
 20
-175.2634340992
 10
681.1413168735
 20
-178.3170933379
 10
682.555260302
 20
-181.3310567108
 10
684.1634880993
 20
-184.2711748084
 10
685.9477784017
 20
-187.104134918
 10
687.8879144873
 20
-189.7978384695
 10
689.9619138388
 20
-192.3217647252
 10
692.146277215
 20
-194.6473165923
 10
694.4162549059
 20
-196.7481446388
 10
696.7461271573
 20
-198.6004456434
 10
699.1094955856
 20
-200.1832322958
 10
701.4795822821
 20
-201.4785709906
 10
703.8295332175
 20
-202.4717850229
 10
706.1327225088
 20
-203.1516208807
 10
708.363054101
 20
-203.5103757522
 10
710.4952574459
 20
-203.5439848014
 10
712.5051738276
 20
-203.2520672242
 10
714.3700300904
 20
-202.6379305635
 10
716.0686966678
 20
-201.7085332331
 10
717.5819269886
 20
-200.474405676
 10
718.8925755486
 20
-198.9495310506
 10
719.9857921759
 20
-197.1511867957
 10
720.8491902894
 20
-195.0997488703
 10
721.4729872434
 20
-192.8184608859
 10
721.8501151692
 20
-190.3331707468
 10
721.9763010566
 20
-187.6720377834
  0
ENDSEC
  0
SECTION
  2
OBJECTS
  0
DICTIONARY
  5
C
330
0
100
AcDbDictionary
281
     1
  3
ACAD_GROUP
350
D
  3
ACAD_LAYOUT
350
1A
  3
ACAD_MLINESTYLE
350
17
  3
ACAD_PLOTSETTINGS
350
19
  3
ACAD_PLOTSTYLENAME
350
E
  3
ACAD_SCALELIST
350
47
  0
DICTIONARY
  5
D
102
{ACAD_REACTORS
330
C
102
}
330
C
100
AcDbDictionary
281
     1
  0
DICTIONARY
  5
1A
102
{ACAD_REACTORS
330
C
102
}
330
C
100
AcDbDictionary
281
     1
  3
Layout1
350
1E
  3
Layout2
350
26
  3
Model
350
22
  0
DICTIONARY
  5
17
102
{ACAD_REACTORS
330
C
102
}
330
C
100
AcDbDictionary
281
     1
  3
Standard
350
18
  0
DICTIONARY
  5
19
102
{ACAD_REACTORS
330
C
102
}
330
C
100
AcDbDictionary
281
     1
  0
ACDBDICTIONARYWDFLT
  5
E
102
{ACAD_REACTORS
330
C
102
}
330
C
100
AcDbDictionary
281
     1
  3
Normal
350
F
100
AcDbDictionaryWithDefault
340
F
  0
DICTIONARY
  5
47
102
{ACAD_REACTORS
330
C
102
}
330
C
100
AcDbDictionary
281
     1
  3
A0
350
48
  3
A1
350
49
  3
A2
350
4A
  3
A3
350
4B
  3
A4
350
4C
  3
A5
350
4D
  3
A6
350
4E
  3
A7
350
4F
  3
A8
350
50
  3
A9
350
51
  3
B0
350
52
  3
B1
350
53
  3
B2
350
54
  3
B3
350
55
  3
B4
350
56
  3
B5
350
57
  3
B6
350
58
  3
B7
350
59
  3
B8
350
5A
  3
B9
350
5B
  3
C0
350
5C
  3
C1
350
5D
  3
C2
350
5E
  3
C3
350
5F
  3
C4
350
60
  3
C5
350
61
  3
C6
350
62
  3
C7
350
63
  3
C8
350
64
  3
C9
350
65
  3
D0
350
66
  3
D1
350
67
  3
D2
350
68
  0
LAYOUT
  5
1E
102
{ACAD_REACTORS
330
1A
102
}
330
1A
100
AcDbPlotSettings
  1

  2
none_device
  4

  6

 40
0.0
 41
0.0
 42
0.0
 43
0.0
 44
0.0
 45
0.0
 46
0.0
 47
0.0
 48
0.0
 49
0.0
140
0.0
141
0.0
142
1.0
143
1.0
 70
   688
 72
     1
 73
     0
 74
     5
  7

 75
    16
147
1.0
148
0.0
149
0.0
100
AcDbLayout
  1
Layout1
 70
     1
 71
     1
 10
0.0
 20
0.0
 11
420.0
 21
297.0
 12
0.0
 22
0.0
 32
0.0
 14
1.0000000000E+20
 24
1.0000000000E+20
 34
1.0000000000E+20
 15
-1.0000000000E+20
 25
-1.0000000000E+20
 35
-1.0000000000E+20
146
0.0
 13
0.0
 23
0.0
 33
0.0
 16
1.0
 26
0.0
 36
0.0
 17
0.0
 27
1.0
 37
0.0
 76
     0
330
1B
  0
LAYOUT
  5
26
102
{ACAD_REACTORS
330
1A
102
}
330
1A
100
AcDbPlotSettings
  1

  2
none_device
  4

  6

 40
0.0
 41
0.0
 42
0.0
 43
0.0
 44
0.0
 45
0.0
 46
0.0
 47
0.0
 48
0.0
 49
0.0
140
0.0
141
0.0
142
1.0
143
1.0
 70
   688
 72
     1
 73
     0
 74
     5
  7

 75
    16
147
1.0
148
0.0
149
0.0
100
AcDbLayout
  1
Layout2
 70
     1
 71
     2
 10
0.0
 20
0.0
 11
0.0
 21
0.0
 12
0.0
 22
0.0
 32
0.0
 14
0.0
 24
0.0
 34
0.0
 15
0.0
 25
0.0
 35
0.0
146
0.0
 13
0.0
 23
0.0
 33
0.0
 16
1.0
 26
0.0
 36
0.0
 17
0.0
 27
1.0
 37
0.0
 76
     0
330
23
  0
LAYOUT
  5
22
102
{ACAD_REACTORS
330
1A
102
}
330
1A
100
AcDbPlotSettings
  1

  2
none_device
  4
Letter_(8.50_x_11.00_Inches)
  6

 40
6.35
 41
6.35
 42
6.35000508
 43
6.35000508
 44
215.9
 45
279.4
 46
0.0
 47
0.0
 48
0.0
 49
0.0
140
0.0
141
0.0
142
1.0
143
1.0
 70
  1712
 72
     1
 73
     0
 74
     0
  7

 75
     0
147
1.0
148
0.0
149
0.0
100
AcDbLayout
  1
Model
 70
     1
 71
     0
 10
0.0
 20
0.0
 11
279.4
 21
215.9
 12
0.0
 22
0.0
 32
0.0
 14
0.0
 24
0.0
 34
0.0
 15
279.4
 25
215.9
 35
0.0
146
0.0
 13
0.0
 23
0.0
 33
0.0
 16
1.0
 26
0.0
 36
0.0
 17
0.0
 27
1.0
 37
0.0
 76
     0
330
1F
331
29
  0
MLINESTYLE
  5
18
102
{ACAD_REACTORS
330
17
102
}
330
17
100
AcDbMlineStyle
  2
Standard
 70
     0
  3

 62
   256
 51
90.0
 52
90.0
 71
     2
 49
0.5
 62
   256
  6
BYLAYER
 49
-0.5
 62
   256
  6
BYLAYER
  0
ACDBPLACEHOLDER
  5
F
102
{ACAD_REACTORS
330
E
102
}
330
E
  0
SCALE
  5
48
102
{ACAD_REACTORS
330
47
102
}
330
47
100
AcDbScale
 70
     0
300
1:1
140
1.0
141
1.0
290
     1
  0
SCALE
  5
49
102
{ACAD_REACTORS
330
47
102
}
330
47
100
AcDbScale
 70
     0
300
1:2
140
1.0
141
2.0
290
     0
  0
SCALE
  5
4A
102
{ACAD_REACTORS
330
47
102
}
330
47
100
AcDbScale
 70
     0
300
1:4
140
1.0
141
4.0
290
     0
  0
SCALE
  5
4B
102
{ACAD_REACTORS
330
47
102
}
330
47
100
AcDbScale
 70
     0
300
1:5
140
1.0
141
5.0
290
     0
  0
SCALE
  5
4C
102
{ACAD_REACTORS
330
47
102
}
330
47
100
AcDbScale
 70
     0
300
1:8
140
1.0
141
8.0
290
     0
  0
SCALE
  5
4D
102
{ACAD_REACTORS
330
47
102
}
330
47
100
AcDbScale
 70
     0
300
1:10
140
1.0
141
10.0
290
     0
  0
SCALE
  5
4E
102
{ACAD_REACTORS
330
47
102
}
330
47
100
AcDbScale
 70
     0
300
1:16
140
1.0
141
16.0
290
     0
  0
SCALE
  5
4F
102
{ACAD_REACTORS
330
47
102
}
330
47
100
AcDbScale
 70
     0
300
1:20
140
1.0
141
20.0
290
     0
  0
SCALE
  5
50
102
{ACAD_REACTORS
330
47
102
}
330
47
100
AcDbScale
 70
     0
300
1:30
140
1.0
141
30.0
290
     0
  0
SCALE
  5
51
102
{ACAD_REACTORS
330
47
102
}
330
47
100
AcDbScale
 70
     0
300
1:40
140
1.0
141
40.0
290
     0
  0
SCALE
  5
52
102
{ACAD_REACTORS
330
47
102
}
330
47
100
AcDbScale
 70
     0
300
1:50
140
1.0
141
50.0
290
     0
  0
SCALE
  5
53
102
{ACAD_REACTORS
330
47
102
}
330
47
100
AcDbScale
 70
     0
300
1:100
140
1.0
141
100.0
290
     0
  0
SCALE
  5
54
102
{ACAD_REACTORS
330
47
102
}
330
47
100
AcDbScale
 70
     0
300
2:1
140
2.0
141
1.0
290
     0
  0
SCALE
  5
55
102
{ACAD_REACTORS
330
47
102
}
330
47
100
AcDbScale
 70
     0
300
4:1
140
4.0
141
1.0
290
     0
  0
SCALE
  5
56
102
{ACAD_REACTORS
330
47
102
}
330
47
100
AcDbScale
 70
     0
300
8:1
140
8.0
141
1.0
290
     0
  0
SCALE
  5
57
102
{ACAD_REACTORS
330
47
102
}
330
47
100
AcDbScale
 70
     0
300
10:1
140
10.0
141
1.0
290
     0
  0
SCALE
  5
58
102
{ACAD_REACTORS
330
47
102
}
330
47
100
AcDbScale
 70
     0
300
100:1
140
100.0
141
1.0
290
     0
  0
SCALE
  5
59
102
{ACAD_REACTORS
330
47
102
}
330
47
100
AcDbScale
 70
     0
300
1/128" = 1'-0"
140
0.0078125
141
12.0
290
     0
  0
SCALE
  5
5A
102
{ACAD_REACTORS
330
47
102
}
330
47
100
AcDbScale
 70
     0
300
1/64" = 1'-0"
140
0.015625
141
12.0
290
     0
  0
SCALE
  5
5B
102
{ACAD_REACTORS
330
47
102
}
330
47
100
AcDbScale
 70
     0
300
1/32" = 1'-0"
140
0.03125
141
12.0
290
     0
  0
SCALE
  5
5C
102
{ACAD_REACTORS
330
47
102
}
330
47
100
AcDbScale
 70
     0
300
1/16" = 1'-0"
140
0.0625
141
12.0
290
     0
  0
SCALE
  5
5D
102
{ACAD_REACTORS
330
47
102
}
330
47
100
AcDbScale
 70
     0
300
3/32" = 1'-0"
140
0.09375
141
12.0
290
     0
  0
SCALE
  5
5E
102
{ACAD_REACTORS
330
47
102
}
330
47
100
AcDbScale
 70
     0
300
1/8" = 1'-0"
140
0.125
141
12.0
290
     0
  0
SCALE
  5
5F
102
{ACAD_REACTORS
330
47
102
}
330
47
100
AcDbScale
 70
     0
300
3/16" = 1'-0"
140
0.1875
141
12.0
290
     0
  0
SCALE
  5
60
102
{ACAD_REACTORS
330
47
102
}
330
47
100
AcDbScale
 70
     0
300
1/4" = 1'-0"
140
0.25
141
12.0
290
     0
  0
SCALE
  5
61
102
{ACAD_REACTORS
330
47
102
}
330
47
100
AcDbScale
 70
     0
300
3/8" = 1'-0"
140
0.375
141
12.0
290
     0
  0
SCALE
  5
62
102
{ACAD_REACTORS
330
47
102
}
330
47
100
AcDbScale
 70
     0
300
1/2" = 1'-0"
140
0.5
141
12.0
290
     0
  0
SCALE
  5
63
102
{ACAD_REACTORS
330
47
102
}
330
47
100
AcDbScale
 70
     0
300
3/4" = 1'-0"
140
0.75
141
12.0
290
     0
  0
SCALE
  5
64
102
{ACAD_REACTORS
330
47
102
}
330
47
100
AcDbScale
 70
     0
300
1" = 1'-0"
140
1.0
141
12.0
290
     0
  0
SCALE
  5
65
102
{ACAD_REACTORS
330
47
102
}
330
47
100
AcDbScale
 70
     0
300
1-1/2" = 1'-0"
140
1.5
141
12.0
290
     0
  0
SCALE
  5
66
102
{ACAD_REACTORS
330
47
102
}
330
47
100
AcDbScale
 70
     0
300
3" = 1'-0"
140
3.0
141
12.0
290
     0
  0
SCALE
  5
67
102
{ACAD_REACTORS
330
47
102
}
330
47
100
AcDbScale
 70
     0
300
6" = 1'-0"
140
6.0
141
12.0
290
     0
  0
SCALE
  5
68
102
{ACAD_REACTORS
330
47
102
}
330
47
100
AcDbScale
 70
     0
300
1'-0" = 1'-0"
140
12.0
141
12.0
290
     0
  0
ENDSEC
  0
EOF
